ISO-10303-21;
HEADER;
FILE_DESCRIPTION (( 'STEP AP214' ),
    '1' );
FILE_NAME ('am-3744 500-D Shaft Adapter.STEP',
    '2020-05-19T18:21:07',
    ( '' ),
    ( '' ),
    'SwSTEP 2.0',
    'SolidWorks 2019',
    '' );
FILE_SCHEMA (( 'AUTOMOTIVE_DESIGN' ));
ENDSEC;

DATA;
#1 = CARTESIAN_POINT ( 'NONE',  ( -0.06878505960562128485, 0.09842519685039370636, 0.7500000000000001110 ) ) ;
#2 = CARTESIAN_POINT ( 'NONE',  ( -0.2872317589218388312, -4.975284174008739321E-20, 0.7500000000000001110 ) ) ;
#3 = DIRECTION ( 'NONE',  ( -0.5000000000000003331, 0.8660254037844383745, 0.0000000000000000000 ) ) ;
#4 = PRODUCT_DEFINITION_CONTEXT ( 'detailed design', #194, 'design' ) ;
#5 = EDGE_CURVE ( 'NONE', #274, #216, #177, .T. ) ;
#6 = DIRECTION ( 'NONE',  ( 0.5000000000000002220, 0.8660254037844383745, 0.0000000000000000000 ) ) ;
#7 = VECTOR ( 'NONE', #290, 39.37007874015748854 ) ;
#8 = CIRCLE ( 'NONE', #57, 0.1200787400000001004 ) ;
#9 = CARTESIAN_POINT ( 'NONE',  ( -0.1436158794609193046, -0.2487499999999999989, 0.0000000000000000000 ) ) ;
#10 = ADVANCED_FACE ( 'NONE', ( #175 ), #171, .F. ) ;
#11 =( NAMED_UNIT ( * ) PLANE_ANGLE_UNIT ( ) SI_UNIT ( $, .RADIAN. ) );
#12 = DIRECTION ( 'NONE',  ( 1.000000000000000000, 0.0000000000000000000, 0.0000000000000000000 ) ) ;
#13 =( GEOMETRIC_REPRESENTATION_CONTEXT ( 3 ) GLOBAL_UNCERTAINTY_ASSIGNED_CONTEXT ( ( #110 ) ) GLOBAL_UNIT_ASSIGNED_CONTEXT ( ( #311, #266, #230 ) ) REPRESENTATION_CONTEXT ( 'NONE', 'WORKASPACE' ) );
#14 = APPLICATION_PROTOCOL_DEFINITION ( 'draft international standard', 'automotive_design', 1998, #194 ) ;
#15 = DIRECTION ( 'NONE',  ( 0.8660254037844384856, -0.5000000000000003331, 0.0000000000000000000 ) ) ;
#16 = PRODUCT_CONTEXT ( 'NONE', #232, 'mechanical' ) ;
#17 = CARTESIAN_POINT ( 'NONE',  ( 0.1436158794609194711, -0.2487499999999999711, 0.7500000000000001110 ) ) ;
#18 = FACE_OUTER_BOUND ( 'NONE', #331, .T. ) ;
#19 = LINE ( 'NONE', #36, #205 ) ;
#20 = CARTESIAN_POINT ( 'NONE',  ( 0.1436158794609192768, 0.2487499999999999989, 0.7500000000000001110 ) ) ;
#21 = LINE ( 'NONE', #158, #280 ) ;
#22 = ORIENTED_EDGE ( 'NONE', *, *, #313, .F. ) ;
#23 = COLOUR_RGB ( '',0.8980392156862745390, 0.9176470588235293713, 0.9294117647058823817 ) ;
#24 = DIRECTION ( 'NONE',  ( 1.000000000000000000, 0.0000000000000000000, -0.0000000000000000000 ) ) ;
#25 = CYLINDRICAL_SURFACE ( 'NONE', #134, 0.1200787400000001004 ) ;
#26 = EDGE_CURVE ( 'NONE', #325, #326, #8, .T. ) ;
#27 = DIRECTION ( 'NONE',  ( -0.0000000000000000000, -0.0000000000000000000, 1.000000000000000000 ) ) ;
#28 = DIRECTION ( 'NONE',  ( 0.4999999999999998890, 0.8660254037844385966, 0.0000000000000000000 ) ) ;
#29 = VECTOR ( 'NONE', #3, 39.37007874015748143 ) ;
#30 = FACE_BOUND ( 'NONE', #324, .T. ) ;
#31 = PLANE ( 'NONE',  #41 ) ;
#32 = DIRECTION ( 'NONE',  ( 0.0000000000000000000, -1.000000000000000000, 0.0000000000000000000 ) ) ;
#33 = DIRECTION ( 'NONE',  ( 0.5000000000000002220, -0.8660254037844384856, 0.0000000000000000000 ) ) ;
#34 = LINE ( 'NONE', #143, #245 ) ;
#35 = FACE_OUTER_BOUND ( 'NONE', #99, .T. ) ;
#36 = CARTESIAN_POINT ( 'NONE',  ( 0.1436158794609194711, -0.2487499999999999711, 0.7500000000000001110 ) ) ;
#37 = CARTESIAN_POINT ( 'NONE',  ( 0.1436158794609192768, 0.2487499999999999989, 0.7500000000000001110 ) ) ;
#38 = LINE ( 'NONE', #339, #299 ) ;
#39 = LINE ( 'NONE', #342, #29 ) ;
#40 = PRESENTATION_LAYER_ASSIGNMENT (  '', '', ( #243 ) ) ;
#41 = AXIS2_PLACEMENT_3D ( 'NONE', #37, #32, #156 ) ;
#42 = LINE ( 'NONE', #44, #286 ) ;
#43 = FACE_BOUND ( 'NONE', #84, .T. ) ;
#44 = CARTESIAN_POINT ( 'NONE',  ( -0.2872317589218388312, -4.975284174008739321E-20, 0.7500000000000001110 ) ) ;
#45 = CARTESIAN_POINT ( 'NONE',  ( 0.0000000000000000000, 0.0000000000000000000, 0.7500000000000001110 ) ) ;
#46 = CARTESIAN_POINT ( 'NONE',  ( 0.1436158794609194711, -0.2487499999999999711, 0.7500000000000001110 ) ) ;
#47 = FACE_OUTER_BOUND ( 'NONE', #76, .T. ) ;
#48 = VECTOR ( 'NONE', #28, 39.37007874015748854 ) ;
#49 = ORIENTED_EDGE ( 'NONE', *, *, #118, .T. ) ;
#50 = LINE ( 'NONE', #227, #196 ) ;
#51 = LINE ( 'NONE', #148, #345 ) ;
#52 = PLANE ( 'NONE',  #332 ) ;
#53 = DIRECTION ( 'NONE',  ( -1.000000000000000000, 0.0000000000000000000, 0.0000000000000000000 ) ) ;
#54 = CARTESIAN_POINT ( 'NONE',  ( 0.06878505960562128485, 0.09842519685039370636, 0.7500000000000001110 ) ) ;
#55 = CARTESIAN_POINT ( 'NONE',  ( -0.1436158794609193046, -0.2487499999999999989, 0.0000000000000000000 ) ) ;
#56 = PLANE ( 'NONE',  #244 ) ;
#57 = AXIS2_PLACEMENT_3D ( 'NONE', #202, #172, #198 ) ;
#58 = AXIS2_PLACEMENT_3D ( 'NONE', #63, #128, #125 ) ;
#59 = ORIENTED_EDGE ( 'NONE', *, *, #344, .T. ) ;
#60 = DIRECTION ( 'NONE',  ( 1.000000000000000000, 1.188869227030554171E-16, 0.0000000000000000000 ) ) ;
#61 = AXIS2_PLACEMENT_3D ( 'NONE', #98, #302, #12 ) ;
#62 = DIRECTION ( 'NONE',  ( 0.0000000000000000000, -0.0000000000000000000, 1.000000000000000000 ) ) ;
#63 = CARTESIAN_POINT ( 'NONE',  ( 0.0000000000000000000, 0.0000000000000000000, 0.0000000000000000000 ) ) ;
#64 = PLANE ( 'NONE',  #58 ) ;
#65 = PLANE ( 'NONE',  #176 ) ;
#66 = DIRECTION ( 'NONE',  ( -0.0000000000000000000, -0.0000000000000000000, 1.000000000000000000 ) ) ;
#67 = EDGE_CURVE ( 'NONE', #89, #85, #21, .T. ) ;
#68 = DIRECTION ( 'NONE',  ( -0.0000000000000000000, -0.0000000000000000000, -1.000000000000000000 ) ) ;
#69 = AXIS2_PLACEMENT_3D ( 'NONE', #251, #252, #255 ) ;
#70 = CARTESIAN_POINT ( 'NONE',  ( -0.1436158794609193601, 0.2487499999999999989, 0.7500000000000001110 ) ) ;
#71 = CARTESIAN_POINT ( 'NONE',  ( 0.1436158794609192768, 0.2487499999999999989, 0.0000000000000000000 ) ) ;
#72 = MANIFOLD_SOLID_BREP ( 'Cut-Extrude1', #254 ) ;
#73 = CARTESIAN_POINT ( 'NONE',  ( -0.06878505960562128485, 0.09842519685039370636, 0.0000000000000000000 ) ) ;
#74 = VECTOR ( 'NONE', #130, 39.37007874015748143 ) ;
#75 = LENGTH_MEASURE_WITH_UNIT ( LENGTH_MEASURE( 0.02539999999999999897 ), #229 );
#76 = EDGE_LOOP ( 'NONE', ( #22, #343, #108, #319, #92, #103 ) ) ;
#77 = VECTOR ( 'NONE', #60, 39.37007874015748143 ) ;
#78 = MECHANICAL_DESIGN_GEOMETRIC_PRESENTATION_REPRESENTATION (  '', ( #272 ), #13 ) ;
#79 = FACE_OUTER_BOUND ( 'NONE', #235, .T. ) ;
#80 = FACE_OUTER_BOUND ( 'NONE', #100, .T. ) ;
#81 = ORIENTED_EDGE ( 'NONE', *, *, #300, .F. ) ;
#82 = ORIENTED_EDGE ( 'NONE', *, *, #181, .T. ) ;
#83 = LINE ( 'NONE', #136, #305 ) ;
#84 = EDGE_LOOP ( 'NONE', ( #164, #150 ) ) ;
#85 = VERTEX_POINT ( 'NONE', #267 ) ;
#86 = EDGE_LOOP ( 'NONE', ( #224, #166, #163, #161 ) ) ;
#87 = EDGE_LOOP ( 'NONE', ( #169, #222, #226, #327 ) ) ;
#88 = VERTEX_POINT ( 'NONE', #260 ) ;
#89 = VERTEX_POINT ( 'NONE', #337 ) ;
#90 = ORIENTED_EDGE ( 'NONE', *, *, #170, .T. ) ;
#91 = ORIENTED_EDGE ( 'NONE', *, *, #137, .T. ) ;
#92 = ORIENTED_EDGE ( 'NONE', *, *, #281, .F. ) ;
#93 = ORIENTED_EDGE ( 'NONE', *, *, #317, .T. ) ;
#94 = COLOUR_RGB ( '',0.8980392156862745390, 0.9176470588235293713, 0.9294117647058823817 ) ;
#95 = CARTESIAN_POINT ( 'NONE',  ( 0.1436158794609194711, -0.2487499999999999711, 0.7500000000000001110 ) ) ;
#96 = CARTESIAN_POINT ( 'NONE',  ( -0.1436158794609193601, 0.2487499999999999989, 0.0000000000000000000 ) ) ;
#97 = ORIENTED_EDGE ( 'NONE', *, *, #199, .T. ) ;
#98 = CARTESIAN_POINT ( 'NONE',  ( 0.0000000000000000000, 0.0000000000000000000, 0.0000000000000000000 ) ) ;
#99 = EDGE_LOOP ( 'NONE', ( #105, #101, #102, #93 ) ) ;
#100 = EDGE_LOOP ( 'NONE', ( #338, #301, #142, #320 ) ) ;
#101 = ORIENTED_EDGE ( 'NONE', *, *, #170, .F. ) ;
#102 = ORIENTED_EDGE ( 'NONE', *, *, #344, .F. ) ;
#103 = ORIENTED_EDGE ( 'NONE', *, *, #137, .F. ) ;
#104 = AXIS2_PLACEMENT_3D ( 'NONE', #348, #124, #126 ) ;
#105 = ORIENTED_EDGE ( 'NONE', *, *, #26, .T. ) ;
#106 = CARTESIAN_POINT ( 'NONE',  ( 0.1436158794609194711, -0.2487499999999999711, 0.0000000000000000000 ) ) ;
#107 = DIRECTION ( 'NONE',  ( 0.5000000000000002220, -0.8660254037844384856, 0.0000000000000000000 ) ) ;
#108 = ORIENTED_EDGE ( 'NONE', *, *, #279, .F. ) ;
#109 = ORIENTED_EDGE ( 'NONE', *, *, #262, .T. ) ;
#110 = UNCERTAINTY_MEASURE_WITH_UNIT (LENGTH_MEASURE( 1.000000000000000082E-05 ), #311, 'distance_accuracy_value', 'NONE');
#111 = MECHANICAL_DESIGN_GEOMETRIC_PRESENTATION_REPRESENTATION (  '', ( #243 ), #120 ) ;
#112 = CARTESIAN_POINT ( 'NONE',  ( -0.1436158794609193046, -0.2487499999999999989, 0.7500000000000001110 ) ) ;
#113 = DIRECTION ( 'NONE',  ( -0.0000000000000000000, -0.0000000000000000000, 1.000000000000000000 ) ) ;
#114 = LINE ( 'NONE', #129, #151 ) ;
#115 = CARTESIAN_POINT ( 'NONE',  ( -0.1436158794609193601, 0.2487499999999999989, 0.7500000000000001110 ) ) ;
#116 = DIRECTION ( 'NONE',  ( -0.4999999999999998890, -0.8660254037844385966, 0.0000000000000000000 ) ) ;
#117 = DIRECTION ( 'NONE',  ( 0.0000000000000000000, -0.0000000000000000000, 1.000000000000000000 ) ) ;
#118 = EDGE_CURVE ( 'NONE', #278, #322, #259, .T. ) ;
#119 = CARTESIAN_POINT ( 'NONE',  ( 0.2872317589218388312, -3.420653317598663250E-17, 0.7500000000000001110 ) ) ;
#120 =( GEOMETRIC_REPRESENTATION_CONTEXT ( 3 ) GLOBAL_UNCERTAINTY_ASSIGNED_CONTEXT ( ( #304 ) ) GLOBAL_UNIT_ASSIGNED_CONTEXT ( ( #273, #335, #250 ) ) REPRESENTATION_CONTEXT ( 'NONE', 'WORKASPACE' ) );
#121 = EDGE_CURVE ( 'NONE', #322, #334, #42, .T. ) ;
#122 = PRODUCT_DEFINITION_FORMATION_WITH_SPECIFIED_SOURCE ( 'ANY', '', #236, .NOT_KNOWN. ) ;
#123 = ORIENTED_EDGE ( 'NONE', *, *, #317, .F. ) ;
#124 = DIRECTION ( 'NONE',  ( -0.8660254037844384856, -0.5000000000000004441, 0.0000000000000000000 ) ) ;
#125 = DIRECTION ( 'NONE',  ( 1.000000000000000000, 0.0000000000000000000, -0.0000000000000000000 ) ) ;
#126 = DIRECTION ( 'NONE',  ( 0.5000000000000003331, -0.8660254037844383745, 0.0000000000000000000 ) ) ;
#127 = ORIENTED_EDGE ( 'NONE', *, *, #67, .F. ) ;
#128 = DIRECTION ( 'NONE',  ( 0.0000000000000000000, -0.0000000000000000000, 1.000000000000000000 ) ) ;
#129 = CARTESIAN_POINT ( 'NONE',  ( -0.2872317589218388312, -4.975284174008739321E-20, 0.0000000000000000000 ) ) ;
#130 = DIRECTION ( 'NONE',  ( -0.0000000000000000000, -0.0000000000000000000, -1.000000000000000000 ) ) ;
#131 = CARTESIAN_POINT ( 'NONE',  ( -0.06878505960562128485, 0.09842519685039370636, 0.0000000000000000000 ) ) ;
#132 = CARTESIAN_POINT ( 'NONE',  ( -0.06878505960562128485, 0.09842519685039370636, 0.7500000000000001110 ) ) ;
#133 = DIRECTION ( 'NONE',  ( -0.8660254037844387076, 0.4999999999999999445, 0.0000000000000000000 ) ) ;
#134 = AXIS2_PLACEMENT_3D ( 'NONE', #174, #66, #145 ) ;
#135 = CARTESIAN_POINT ( 'NONE',  ( -0.2872317589218388312, -4.975284174008739321E-20, 0.7500000000000001110 ) ) ;
#136 = CARTESIAN_POINT ( 'NONE',  ( 0.2872317589218388312, -3.420653317598663250E-17, 0.7500000000000001110 ) ) ;
#137 = EDGE_CURVE ( 'NONE', #157, #233, #39, .T. ) ;
#138 = LINE ( 'NONE', #132, #184 ) ;
#139 = CARTESIAN_POINT ( 'NONE',  ( 0.2872317589218388312, -3.420653317598663250E-17, 0.0000000000000000000 ) ) ;
#140 = ORIENTED_EDGE ( 'NONE', *, *, #121, .T. ) ;
#141 = LINE ( 'NONE', #55, #77 ) ;
#142 = ORIENTED_EDGE ( 'NONE', *, *, #330, .F. ) ;
#143 = CARTESIAN_POINT ( 'NONE',  ( 0.06878505960562128485, 0.09842519685039370636, 0.0000000000000000000 ) ) ;
#144 = LINE ( 'NONE', #46, #48 ) ;
#145 = DIRECTION ( 'NONE',  ( 1.000000000000000000, 0.0000000000000000000, 0.0000000000000000000 ) ) ;
#146 = EDGE_CURVE ( 'NONE', #334, #333, #38, .T. ) ;
#147 = EDGE_CURVE ( 'NONE', #88, #233, #349, .T. ) ;
#148 = CARTESIAN_POINT ( 'NONE',  ( 0.1436158794609192768, 0.2487499999999999989, 0.0000000000000000000 ) ) ;
#149 = DIRECTION ( 'NONE',  ( -0.0000000000000000000, -0.0000000000000000000, -1.000000000000000000 ) ) ;
#150 = ORIENTED_EDGE ( 'NONE', *, *, #199, .F. ) ;
#151 = VECTOR ( 'NONE', #107, 39.37007874015748854 ) ;
#152 = LINE ( 'NONE', #135, #253 ) ;
#153 = VERTEX_POINT ( 'NONE', #106 ) ;
#154 = DIRECTION ( 'NONE',  ( -0.5000000000000003331, 0.8660254037844383745, 0.0000000000000000000 ) ) ;
#155 = DIRECTION ( 'NONE',  ( -0.0000000000000000000, -0.0000000000000000000, -1.000000000000000000 ) ) ;
#156 = DIRECTION ( 'NONE',  ( 0.0000000000000000000, -0.0000000000000000000, -1.000000000000000000 ) ) ;
#157 = VERTEX_POINT ( 'NONE', #139 ) ;
#158 = CARTESIAN_POINT ( 'NONE',  ( -0.06878505960562128485, 0.09842519685039370636, 0.0000000000000000000 ) ) ;
#159 = AXIS2_PLACEMENT_3D ( 'NONE', #276, #15, #6 ) ;
#160 = DIRECTION ( 'NONE',  ( -0.5000000000000001110, -0.8660254037844384856, 0.0000000000000000000 ) ) ;
#161 = ORIENTED_EDGE ( 'NONE', *, *, #146, .T. ) ;
#162 = ORIENTED_EDGE ( 'NONE', *, *, #67, .T. ) ;
#163 = ORIENTED_EDGE ( 'NONE', *, *, #262, .F. ) ;
#164 = ORIENTED_EDGE ( 'NONE', *, *, #26, .F. ) ;
#165 = DIRECTION ( 'NONE',  ( 0.8660254037844384856, 0.5000000000000004441, -0.0000000000000000000 ) ) ;
#166 = ORIENTED_EDGE ( 'NONE', *, *, #193, .F. ) ;
#167 = ORIENTED_EDGE ( 'NONE', *, *, #300, .T. ) ;
#168 = ORIENTED_EDGE ( 'NONE', *, *, #330, .T. ) ;
#169 = ORIENTED_EDGE ( 'NONE', *, *, #279, .T. ) ;
#170 = EDGE_CURVE ( 'NONE', #89, #326, #34, .T. ) ;
#171 = PLANE ( 'NONE',  #192 ) ;
#172 = DIRECTION ( 'NONE',  ( 0.0000000000000000000, 0.0000000000000000000, 1.000000000000000000 ) ) ;
#173 = CARTESIAN_POINT ( 'NONE',  ( -0.1436158794609193601, 0.2487499999999999989, 0.0000000000000000000 ) ) ;
#174 = CARTESIAN_POINT ( 'NONE',  ( 0.0000000000000000000, 0.0000000000000000000, 0.0000000000000000000 ) ) ;
#175 = FACE_OUTER_BOUND ( 'NONE', #87, .T. ) ;
#176 = AXIS2_PLACEMENT_3D ( 'NONE', #131, #218, #117 ) ;
#177 = LINE ( 'NONE', #173, #195 ) ;
#178 = ADVANCED_FACE ( 'NONE', ( #30, #47 ), #64, .F. ) ;
#179 = DIRECTION ( 'NONE',  ( 1.000000000000000000, 1.188869227030554171E-16, 0.0000000000000000000 ) ) ;
#180 = DIRECTION ( 'NONE',  ( -0.0000000000000000000, -0.0000000000000000000, -1.000000000000000000 ) ) ;
#181 = EDGE_CURVE ( 'NONE', #209, #214, #144, .T. ) ;
#182 = VECTOR ( 'NONE', #179, 39.37007874015748143 ) ;
#183 = ADVANCED_FACE ( 'NONE', ( #80 ), #31, .F. ) ;
#184 = VECTOR ( 'NONE', #263, 39.37007874015748143 ) ;
#185 = EDGE_CURVE ( 'NONE', #333, #153, #141, .T. ) ;
#186 = ADVANCED_FACE ( 'NONE', ( #18 ), #347, .F. ) ;
#187 = AXIS2_PLACEMENT_3D ( 'NONE', #270, #271, #268 ) ;
#188 = DIMENSIONAL_EXPONENTS ( 1.000000000000000000, 0.0000000000000000000, 0.0000000000000000000, 0.0000000000000000000, 0.0000000000000000000, 0.0000000000000000000, 0.0000000000000000000 ) ;
#189 = DIMENSIONAL_EXPONENTS ( 1.000000000000000000, 0.0000000000000000000, 0.0000000000000000000, 0.0000000000000000000, 0.0000000000000000000, 0.0000000000000000000, 0.0000000000000000000 ) ;
#190 = ADVANCED_FACE ( 'NONE', ( #43, #79 ), #52, .T. ) ;
#191 = ADVANCED_FACE ( 'NONE', ( #35 ), #25, .F. ) ;
#192 = AXIS2_PLACEMENT_3D ( 'NONE', #204, #165, #154 ) ;
#193 = EDGE_CURVE ( 'NONE', #209, #153, #19, .T. ) ;
#194 = APPLICATION_CONTEXT ( 'automotive_design' ) ;
#195 = VECTOR ( 'NONE', #160, 39.37007874015748854 ) ;
#196 = VECTOR ( 'NONE', #213, 39.37007874015748854 ) ;
#197 = PRESENTATION_LAYER_ASSIGNMENT (  '', '', ( #272 ) ) ;
#198 = DIRECTION ( 'NONE',  ( 1.000000000000000000, 0.0000000000000000000, 0.0000000000000000000 ) ) ;
#199 = EDGE_CURVE ( 'NONE', #326, #325, #138, .T. ) ;
#200 = LINE ( 'NONE', #73, #289 ) ;
#201 = PRODUCT_DEFINITION_SHAPE ( 'NONE', 'NONE',  #247 ) ;
#202 = CARTESIAN_POINT ( 'NONE',  ( 0.0000000000000000000, 0.0000000000000000000, 0.7500000000000001110 ) ) ;
#203 = LINE ( 'NONE', #206, #303 ) ;
#204 = CARTESIAN_POINT ( 'NONE',  ( -0.2872317589218388312, -4.975284174008739321E-20, 0.7500000000000001110 ) ) ;
#205 = VECTOR ( 'NONE', #149, 39.37007874015748143 ) ;
#206 = CARTESIAN_POINT ( 'NONE',  ( 0.1436158794609192768, 0.2487499999999999989, 0.7500000000000001110 ) ) ;
#207 = LINE ( 'NONE', #115, #307 ) ;
#208 = LINE ( 'NONE', #119, #293 ) ;
#209 = VERTEX_POINT ( 'NONE', #17 ) ;
#210 = EDGE_LOOP ( 'NONE', ( #219, #211, #329, #215 ) ) ;
#211 = ORIENTED_EDGE ( 'NONE', *, *, #315, .F. ) ;
#212 = FACE_OUTER_BOUND ( 'NONE', #210, .T. ) ;
#213 = DIRECTION ( 'NONE',  ( 0.4999999999999998890, 0.8660254037844385966, 0.0000000000000000000 ) ) ;
#214 = VERTEX_POINT ( 'NONE', #237 ) ;
#215 = ORIENTED_EDGE ( 'NONE', *, *, #193, .T. ) ;
#216 = VERTEX_POINT ( 'NONE', #238 ) ;
#217 = ORIENTED_EDGE ( 'NONE', *, *, #285, .F. ) ;
#218 = DIRECTION ( 'NONE',  ( -0.0000000000000000000, 1.000000000000000000, 0.0000000000000000000 ) ) ;
#219 = ORIENTED_EDGE ( 'NONE', *, *, #313, .T. ) ;
#220 = LINE ( 'NONE', #112, #182 ) ;
#221 = DIRECTION ( 'NONE',  ( -0.5000000000000003331, 0.8660254037844383745, 0.0000000000000000000 ) ) ;
#222 = ORIENTED_EDGE ( 'NONE', *, *, #146, .F. ) ;
#223 = ORIENTED_EDGE ( 'NONE', *, *, #282, .T. ) ;
#224 = ORIENTED_EDGE ( 'NONE', *, *, #185, .T. ) ;
#225 = ADVANCED_FACE ( 'NONE', ( #312 ), #261, .F. ) ;
#226 = ORIENTED_EDGE ( 'NONE', *, *, #121, .F. ) ;
#227 = CARTESIAN_POINT ( 'NONE',  ( 0.1436158794609194711, -0.2487499999999999711, 0.0000000000000000000 ) ) ;
#228 = ADVANCED_FACE ( 'NONE', ( #269 ), #65, .F. ) ;
#229 =( LENGTH_UNIT ( ) NAMED_UNIT ( * ) SI_UNIT ( $, .METRE. ) );
#230 =( NAMED_UNIT ( * ) SI_UNIT ( $, .STERADIAN. ) SOLID_ANGLE_UNIT ( ) );
#231 = EDGE_LOOP ( 'NONE', ( #97, #123, #127, #90 ) ) ;
#232 = APPLICATION_CONTEXT ( 'automotive_design' ) ;
#233 = VERTEX_POINT ( 'NONE', #71 ) ;
#234 = SHAPE_DEFINITION_REPRESENTATION ( #201, #323 ) ;
#235 = EDGE_LOOP ( 'NONE', ( #82, #167, #168, #49, #140, #109 ) ) ;
#236 = PRODUCT ( 'am-3744 500-D Shaft Adapter', 'am-3744 500-D Shaft Adapter', '', ( #16 ) ) ;
#237 = CARTESIAN_POINT ( 'NONE',  ( 0.2872317589218388312, -3.420653317598663250E-17, 0.7500000000000001110 ) ) ;
#238 = CARTESIAN_POINT ( 'NONE',  ( -0.2872317589218388312, -4.975284174008739321E-20, 0.0000000000000000000 ) ) ;
#239 = FILL_AREA_STYLE ('',( #309 ) ) ;
#240 = SURFACE_STYLE_FILL_AREA ( #239 ) ;
#241 = ORIENTED_EDGE ( 'NONE', *, *, #118, .F. ) ;
#242 = DIRECTION ( 'NONE',  ( -1.000000000000000000, 0.0000000000000000000, 0.0000000000000000000 ) ) ;
#243 = STYLED_ITEM ( 'NONE', ( #296 ), #72 ) ;
#244 = AXIS2_PLACEMENT_3D ( 'NONE', #95, #133, #116 ) ;
#245 = VECTOR ( 'NONE', #27, 39.37007874015748143 ) ;
#246 =( LENGTH_UNIT ( ) NAMED_UNIT ( * ) SI_UNIT ( $, .METRE. ) );
#247 = PRODUCT_DEFINITION ( 'UNKNOWN', '', #122, #4 ) ;
#248 = SURFACE_SIDE_STYLE ('',( #240 ) ) ;
#249 = SURFACE_STYLE_USAGE ( .BOTH. , #248 ) ;
#250 =( NAMED_UNIT ( * ) SI_UNIT ( $, .STERADIAN. ) SOLID_ANGLE_UNIT ( ) );
#251 = CARTESIAN_POINT ( 'NONE',  ( 0.0000000000000000000, 0.0000000000000000000, 0.0000000000000000000 ) ) ;
#252 = DIRECTION ( 'NONE',  ( 0.0000000000000000000, 0.0000000000000000000, 1.000000000000000000 ) ) ;
#253 = VECTOR ( 'NONE', #155, 39.37007874015748143 ) ;
#254 = CLOSED_SHELL ( 'NONE', ( #306, #186, #183, #340, #10, #225, #190, #178, #191, #228 ) ) ;
#255 = DIRECTION ( 'NONE',  ( 1.000000000000000000, 0.0000000000000000000, 0.0000000000000000000 ) ) ;
#256 = PRESENTATION_STYLE_ASSIGNMENT (( #249 ) ) ;
#257 = LENGTH_MEASURE_WITH_UNIT ( LENGTH_MEASURE( 0.02539999999999999897 ), #246 );
#258 =( CONVERSION_BASED_UNIT ( 'INCH', #257 ) LENGTH_UNIT ( ) NAMED_UNIT ( #189 ) );
#259 = LINE ( 'NONE', #292, #7 ) ;
#260 = CARTESIAN_POINT ( 'NONE',  ( 0.1436158794609192768, 0.2487499999999999989, 0.7500000000000001110 ) ) ;
#261 = PLANE ( 'NONE',  #187 ) ;
#262 = EDGE_CURVE ( 'NONE', #334, #209, #220, .T. ) ;
#263 = DIRECTION ( 'NONE',  ( -1.000000000000000000, -0.0000000000000000000, -0.0000000000000000000 ) ) ;
#264 = CARTESIAN_POINT ( 'NONE',  ( -0.1436158794609193046, -0.2487499999999999989, 0.7500000000000001110 ) ) ;
#265 = FACE_OUTER_BOUND ( 'NONE', #321, .T. ) ;
#266 =( NAMED_UNIT ( * ) PLANE_ANGLE_UNIT ( ) SI_UNIT ( $, .RADIAN. ) );
#267 = CARTESIAN_POINT ( 'NONE',  ( -0.06878505960562128485, 0.09842519685039370636, 0.0000000000000000000 ) ) ;
#268 = DIRECTION ( 'NONE',  ( -1.000000000000000000, -1.188869227030554171E-16, 0.0000000000000000000 ) ) ;
#269 = FACE_OUTER_BOUND ( 'NONE', #231, .T. ) ;
#270 = CARTESIAN_POINT ( 'NONE',  ( -0.1436158794609193046, -0.2487499999999999989, 0.7500000000000001110 ) ) ;
#271 = DIRECTION ( 'NONE',  ( -1.188869227030554171E-16, 1.000000000000000000, 0.0000000000000000000 ) ) ;
#272 = STYLED_ITEM ( 'NONE', ( #256 ), #323 ) ;
#273 =( CONVERSION_BASED_UNIT ( 'INCH', #284 ) LENGTH_UNIT ( ) NAMED_UNIT ( #328 ) );
#274 = VERTEX_POINT ( 'NONE', #96 ) ;
#275 = PLANE ( 'NONE',  #159 ) ;
#276 = CARTESIAN_POINT ( 'NONE',  ( -0.1436158794609193601, 0.2487499999999999989, 0.7500000000000001110 ) ) ;
#277 = APPLICATION_PROTOCOL_DEFINITION ( 'draft international standard', 'automotive_design', 1998, #232 ) ;
#278 = VERTEX_POINT ( 'NONE', #70 ) ;
#279 = EDGE_CURVE ( 'NONE', #216, #333, #114, .T. ) ;
#280 = VECTOR ( 'NONE', #287, 39.37007874015748143 ) ;
#281 = EDGE_CURVE ( 'NONE', #233, #274, #51, .T. ) ;
#282 = EDGE_CURVE ( 'NONE', #278, #274, #207, .T. ) ;
#283 =( GEOMETRIC_REPRESENTATION_CONTEXT ( 3 ) GLOBAL_UNCERTAINTY_ASSIGNED_CONTEXT ( ( #336 ) ) GLOBAL_UNIT_ASSIGNED_CONTEXT ( ( #258, #11, #318 ) ) REPRESENTATION_CONTEXT ( 'NONE', 'WORKASPACE' ) );
#284 = LENGTH_MEASURE_WITH_UNIT ( LENGTH_MEASURE( 0.02539999999999999897 ), #291 );
#285 = EDGE_CURVE ( 'NONE', #322, #216, #152, .T. ) ;
#286 = VECTOR ( 'NONE', #33, 39.37007874015748854 ) ;
#287 = DIRECTION ( 'NONE',  ( -1.000000000000000000, -0.0000000000000000000, -0.0000000000000000000 ) ) ;
#288 = SURFACE_STYLE_USAGE ( .BOTH. , #298 ) ;
#289 = VECTOR ( 'NONE', #113, 39.37007874015748143 ) ;
#290 = DIRECTION ( 'NONE',  ( -0.5000000000000001110, -0.8660254037844384856, 0.0000000000000000000 ) ) ;
#291 =( LENGTH_UNIT ( ) NAMED_UNIT ( * ) SI_UNIT ( $, .METRE. ) );
#292 = CARTESIAN_POINT ( 'NONE',  ( -0.1436158794609193601, 0.2487499999999999989, 0.7500000000000001110 ) ) ;
#293 = VECTOR ( 'NONE', #68, 39.37007874015748143 ) ;
#294 = FILL_AREA_STYLE ('',( #295 ) ) ;
#295 = FILL_AREA_STYLE_COLOUR ( '', #23 ) ;
#296 = PRESENTATION_STYLE_ASSIGNMENT (( #288 ) ) ;
#297 = SURFACE_STYLE_FILL_AREA ( #294 ) ;
#298 = SURFACE_SIDE_STYLE ('',( #297 ) ) ;
#299 = VECTOR ( 'NONE', #341, 39.37007874015748143 ) ;
#300 = EDGE_CURVE ( 'NONE', #214, #88, #83, .T. ) ;
#301 = ORIENTED_EDGE ( 'NONE', *, *, #282, .F. ) ;
#302 = DIRECTION ( 'NONE',  ( 0.0000000000000000000, 0.0000000000000000000, 1.000000000000000000 ) ) ;
#303 = VECTOR ( 'NONE', #242, 39.37007874015748143 ) ;
#304 = UNCERTAINTY_MEASURE_WITH_UNIT (LENGTH_MEASURE( 1.000000000000000082E-05 ), #273, 'distance_accuracy_value', 'NONE');
#305 = VECTOR ( 'NONE', #221, 39.37007874015748143 ) ;
#306 = ADVANCED_FACE ( 'NONE', ( #212 ), #56, .F. ) ;
#307 = VECTOR ( 'NONE', #180, 39.37007874015748143 ) ;
#308 = PRODUCT_RELATED_PRODUCT_CATEGORY ( 'part', '', ( #236 ) ) ;
#309 = FILL_AREA_STYLE_COLOUR ( '', #94 ) ;
#310 = ORIENTED_EDGE ( 'NONE', *, *, #147, .F. ) ;
#311 =( CONVERSION_BASED_UNIT ( 'INCH', #75 ) LENGTH_UNIT ( ) NAMED_UNIT ( #188 ) );
#312 = FACE_OUTER_BOUND ( 'NONE', #86, .T. ) ;
#313 = EDGE_CURVE ( 'NONE', #153, #157, #50, .T. ) ;
#314 = ORIENTED_EDGE ( 'NONE', *, *, #315, .T. ) ;
#315 = EDGE_CURVE ( 'NONE', #214, #157, #208, .T. ) ;
#316 = ORIENTED_EDGE ( 'NONE', *, *, #5, .T. ) ;
#317 = EDGE_CURVE ( 'NONE', #85, #325, #200, .T. ) ;
#318 =( NAMED_UNIT ( * ) SI_UNIT ( $, .STERADIAN. ) SOLID_ANGLE_UNIT ( ) );
#319 = ORIENTED_EDGE ( 'NONE', *, *, #5, .F. ) ;
#320 = ORIENTED_EDGE ( 'NONE', *, *, #147, .T. ) ;
#321 = EDGE_LOOP ( 'NONE', ( #316, #217, #241, #223 ) ) ;
#322 = VERTEX_POINT ( 'NONE', #2 ) ;
#323 = ADVANCED_BREP_SHAPE_REPRESENTATION ( 'am-3744 500-D Shaft Adapter', ( #72, #61 ), #283 ) ;
#324 = EDGE_LOOP ( 'NONE', ( #162, #59 ) ) ;
#325 = VERTEX_POINT ( 'NONE', #1 ) ;
#326 = VERTEX_POINT ( 'NONE', #54 ) ;
#327 = ORIENTED_EDGE ( 'NONE', *, *, #285, .T. ) ;
#328 = DIMENSIONAL_EXPONENTS ( 1.000000000000000000, 0.0000000000000000000, 0.0000000000000000000, 0.0000000000000000000, 0.0000000000000000000, 0.0000000000000000000, 0.0000000000000000000 ) ;
#329 = ORIENTED_EDGE ( 'NONE', *, *, #181, .F. ) ;
#330 = EDGE_CURVE ( 'NONE', #88, #278, #203, .T. ) ;
#331 = EDGE_LOOP ( 'NONE', ( #91, #310, #81, #314 ) ) ;
#332 = AXIS2_PLACEMENT_3D ( 'NONE', #45, #62, #24 ) ;
#333 = VERTEX_POINT ( 'NONE', #9 ) ;
#334 = VERTEX_POINT ( 'NONE', #264 ) ;
#335 =( NAMED_UNIT ( * ) PLANE_ANGLE_UNIT ( ) SI_UNIT ( $, .RADIAN. ) );
#336 = UNCERTAINTY_MEASURE_WITH_UNIT (LENGTH_MEASURE( 1.000000000000000082E-05 ), #258, 'distance_accuracy_value', 'NONE');
#337 = CARTESIAN_POINT ( 'NONE',  ( 0.06878505960562128485, 0.09842519685039370636, 0.0000000000000000000 ) ) ;
#338 = ORIENTED_EDGE ( 'NONE', *, *, #281, .T. ) ;
#339 = CARTESIAN_POINT ( 'NONE',  ( -0.1436158794609193046, -0.2487499999999999989, 0.7500000000000001110 ) ) ;
#340 = ADVANCED_FACE ( 'NONE', ( #265 ), #275, .F. ) ;
#341 = DIRECTION ( 'NONE',  ( -0.0000000000000000000, -0.0000000000000000000, -1.000000000000000000 ) ) ;
#342 = CARTESIAN_POINT ( 'NONE',  ( 0.2872317589218388312, -3.420653317598663250E-17, 0.0000000000000000000 ) ) ;
#343 = ORIENTED_EDGE ( 'NONE', *, *, #185, .F. ) ;
#344 = EDGE_CURVE ( 'NONE', #85, #89, #346, .T. ) ;
#345 = VECTOR ( 'NONE', #53, 39.37007874015748143 ) ;
#346 = CIRCLE ( 'NONE', #69, 0.1200787400000001004 ) ;
#347 = PLANE ( 'NONE',  #104 ) ;
#348 = CARTESIAN_POINT ( 'NONE',  ( 0.2872317589218388312, -3.420653317598663250E-17, 0.7500000000000001110 ) ) ;
#349 = LINE ( 'NONE', #20, #74 ) ;
ENDSEC;
END-ISO-10303-21;
